-----[FreeSplanS.com]-----ศูนย์รวมแบบบ้าน และ ตกแต่ง หลากหลายสไตล์-----

Por Una Cabeza - Carlos Gardel

Carlos Gardel's tune (a popular tango tune) fingerstyle chord melody guitar BASIC arrangement played in the key of E.
Classical Guitar Tablature : http://classicalguitartablature.blogspot.com/

Por Una Cabeza - Carlos Gardel - BASIC ARRANGEMENT played in the key of E
Classical Guitar Tablature : http://classicalguitartablature.blogspot.com/
E|--------------------------------|--------------------------------|
B|-- 0---------------------- 0----| 2-- 0------ 0------ 0-- 2 4----|
G|---------------- 1-- 2-- 3------| 1-------- 1---- 3--------------|
D| 2------------------------------| 2-------- 2--------------------|
A|--------------------------------|--------------------------------|
E| 0------------------------------| 0------------------------------|
Classical Guitar Tablature : http://classicalguitartablature.blogspot.com/
E| 2-- 0-------- 4---- 5 2 4------|---- 2--------------------------|
B| 0-------- 0---------------- 4--|-------- 4-- 5 4----------------|
G| 1------ 1----------------------|-------------------- 4------ 2--|
D|--------------------------------|--------------------------------|
A|--------------------------------|--------------------------------|
E| 0------------------------------| 0------------------------------|
Classical Guitar Tablature : http://classicalguitartablature.blogspot.com/
E|---------------- 5 4-- 7-- 5-- 2|------------ 2 2-- 1-- 4-- 2----|
B|------------ 2---------------- 2|-------- 2----------------------|
G|-------- 2----------------------|---- 2--------------------------|
D|---- 2--------------------------|--------------------------------|
A|--------------------------------|--------------------------------|
E| 2---------------------------- 2|--------------------------------|
Classical Guitar Tablature : http://classicalguitartablature.blogspot.com/
E|---------------------------- 4--|-- 2----------------------------|
B|---------- 7------------ 7------|------ 4---------- 4 2----------|
G| 8------ 8---- 8 9----10--------|---------- 4-- 5------------ 2--|
D|---- 9--------------------------|--------------------------------|
A|--------------------------------|--------------------------------|
E| 7------------------------------| 2------------------------------|
Classical Guitar Tablature : http://classicalguitartablature.blogspot.com/
E|--------------------------------|--------------------------------|
B|------------ 0------------ 0----| 2-- 0------ 0------ 0-- 2 4----|
G| 1------ 1------ 1-- 2-- 3 1----| 1-------- 1---- 3--------------|
D|---- 2--------------------------| 2-------- 2--------------------|
A|--------------------------------|--------------------------------|
E| 0------------------------------| 0------------------------------|
Classical Guitar Tablature : http://classicalguitartablature.blogspot.com/
E|------------------------ 4------|---- 0---- 4---------- 0---- 9--|
B| 7-- 5---- 5-- 5---- 7 5-- 5----| 7------ 7-- 7-- 7------ 7------|
G| 4------ 4---- 4---- 4----------| 7------ 7 7---- 7------ 7------|
D| 6---- 6------ 6---- 6-------- 6|-------- 6------ 6--------------|
A|--------------------------------|--------------------------------|
E| 0------------ 0-------------- 0|--------------------------------|
Classical Guitar Tablature : http://classicalguitartablature.blogspot.com/
E|--------------------------------|------------------ 0------------|
B|-------- 9------ 6-- 5----------|-------------- 1------ 3-- 1----|
G|------ 9-- 9------------ 6------| 1------ 1-- 2------------------|
D|---- 7------ 7------------ 7----|---- 4--------------------------|
A| 0------------------------------| 0------------------------------|
E|--------------------------------|------------------------------ 4|
Classical Guitar Tablature : http://classicalguitartablature.blogspot.com/
E|------------------------ 4---- 2|------------------------ 2------|
B| 5---------- 5 5---- 7 5-- 5----|-------- 2------ 4-- 5-- 4 4----|
G|---- 4---- 4---- 4--------------|------ 3-- 3---- 2--------------|
D| 6------ 6---- 6----------------|---- 2------ 2-- 4--------------|
A|--------------------------------|-------------- 2----------------|
E|---------------- 4--------------| 2---------------------------- 0|
Classical Guitar Tablature : http://classicalguitartablature.blogspot.com/
E| 0------------------------------|---------- 3 3-------------- 7--|
B| 0------------------------------|------ 0-------- 8--10------ 8--|
G| 1------------------------------|---- 0---------- 9-- 9----------|
D|---------------- 2--------------|---- 2--------------------------|
A|------------ 2---------- 2------|---------- 2---- 7--------------|
E|------------------------------ 0|------------------------ 7------|
Classical Guitar Tablature : http://classicalguitartablature.blogspot.com/
E| 7------------------------------|---------- 0-- 0 0-- 2------ 3--|
B|---------- 7-- 7----------------|------ 1-- 1-- 1 1 0------------|
G|------ 7-- 7---- 7--------------|------ 0-- 0-- 0 0--------------|
D|---- 7---- 7-------- 7------ 7--|---- 2--------------------------|
A| 5-------------- 5--------------| 3-------------- 3--------------|
E|------------ 5---------- 5------|---------- 3------------ 3------|
Classical Guitar Tablature : http://classicalguitartablature.blogspot.com/
E| 3------------------------------|-------------------------- 0----|
B| 3------ 3-- 3-- 3--------------|------ 1-- 1 1 1---- 3---- 1----|
G|------ 0-------- 0--------------|---- 2---- 2 2 2---- 2----------|
D|---- 0-------------- 0------ 0--|---- 2---- 2 2-- 2--------------|
A| 2-------------- 2--------------| 0-------------- 0--------------|
E|------------ 3-------- 3--------|---------- 0---------- 0--------|
Classical Guitar Tablature : http://classicalguitartablature.blogspot.com/
E| 0-------------- 0-- 2---- 3 0--| 2------------------ 2---- 3-- 3|
B|-------- 0 0---- 0--------------|-------- 2---- 5----------------|
G|------ 0-------- 0--------------|------ 3------ 3----------------|
D|---- 2--------------------------|---- 4-------- 2----------------|
A|------------ 2---------- 2------|---------- 4---------- 4------ 3|
E| 3-------------- 3--------------| 2-------------- 2--------------|
Classical Guitar Tablature : http://classicalguitartablature.blogspot.com/
E|-------------- 2----------------|---------- 3 3-------------- 7--|
B|------ 3-------- 4--------------|------ 0-------- 8--10------ 8--|
G|------ 3-------- 2--------------|---- 0---------- 9-- 9----------|
D|---- 2-------------- 4---- 4----|---- 2--------------------------|
A|---------------- 2--------------|---------- 2---- 7--------------|
E|------------ 3---------- 2---- 0|------------------------ 7------|
Classical Guitar Tablature : http://classicalguitartablature.blogspot.com/
E| 7------------------------------|---------- 0-- 0 0-- 2------ 3--|
B|---------- 7-- 7----------------|------ 1-- 1-- 1 1 0------------|
G|------ 7-- 7---- 7--------------|------ 0-- 0-- 0 0--------------|
D|---- 7---- 7-------- 7------ 7--|---- 2--------------------------|
A| 5-------------- 5--------------| 3-------------- 3--------------|
E|------------ 5---------- 5------|---------- 3------------ 3------|
Classical Guitar Tablature : http://classicalguitartablature.blogspot.com/
E| 3------------------------------|-------------------------- 0----|
B| 3------ 3-- 3-- 3--------------|------ 1-- 1 1 1---- 3---- 1----|
G|------ 0-------- 0--------------|---- 2---- 2 2 2---- 2----------|
D|---- 0-------------- 0------ 0--|---- 2---- 2 2-- 2--------------|
A| 2-------------- 2--------------| 0-------------- 0--------------|
E|------------ 3-------- 3--------|---------- 0---------- 0--------|
Classical Guitar Tablature : http://classicalguitartablature.blogspot.com/
E| 0-------------- 0-- 2---- 3 0--| 2------------------------ 2----|
B|-------- 0 0---- 0--------------|-------- 2------ 4-- 5---- 4 4--|
G|------ 0-------- 0--------------|------ 3-------- 2-- 2---- 2 2--|
D|---- 2--------------------------|---- 4---------- 4-- 4------ 4--|
A|------------ 2---------- 2------|------------ 4-- 2--------------|
E| 3-------------- 3--------------| 2---------------------- 2------|
Classical Guitar Tablature : http://classicalguitartablature.blogspot.com/
E| 0------------------------------|---------- 3 3-------------- 7--|
B| 0------ 0----------------------|------ 0-------- 8--10------ 8--|
G| 1------ 1----------------------|---- 0---------- 9-- 9----------|
D|---- 2---------- 2--------------|---- 2--------------------------|
A|------------ 2---------- 2------|---------- 2---- 7--------------|
E| 0---------------------------- 0|------------------------ 7------|
Classical Guitar Tablature : http://classicalguitartablature.blogspot.com/
E| 7------------------------------|---------- 0-- 0 0-- 2------ 3--|
B|---------- 7-- 7----------------|------ 1-- 1-- 1 1 0------------|
G|------ 7-- 7---- 7--------------|------ 0-- 0-- 0 0--------------|
D|---- 7---- 7-------- 7------ 7--|---- 2--------------------------|
A| 5-------------- 5--------------| 3-------------- 3--------------|
E|------------ 5---------- 5------|---------- 3------------ 3------|
Classical Guitar Tablature : http://classicalguitartablature.blogspot.com/
E| 3------------------------------|-------------------------- 0----|
B| 3------ 3-- 3-- 3--------------|------ 1-- 1 1 1---- 3---- 1----|
G|------ 0-------- 0--------------|---- 2---- 2 2 2---- 2----------|
D|---- 0-------------- 0------ 0--|---- 2---- 2 2-- 2--------------|
A| 2-------------- 2--------------| 0-------------- 0--------------|
E|------------ 3-------- 3--------|---------- 0---------- 0--------|
Classical Guitar Tablature : http://classicalguitartablature.blogspot.com/
E| 0-------------- 0-- 2---- 3 0--| 2------------------ 2---- 3-- 3|
B|-------- 0 0---- 0--------------|-------- 2---- 5----------------|
G|------ 0-------- 0--------------|------ 3------ 3----------------|
D|---- 2--------------------------|---- 4-------- 2----------------|
A|------------ 2---------- 2------|---------- 4---------- 4------ 3|
E| 3-------------- 3--------------| 2-------------- 2--------------|
Classical Guitar Tablature : http://classicalguitartablature.blogspot.com/
E|-------------- 2----------------|---------- 3 3-------------- 7--|
B|------ 3-------- 4--------------|------ 0-------- 8--10------ 8--|
G|------ 3-------- 2--------------|---- 0---------- 9-- 9----------|
D|---- 2-------------- 4---- 4----|---- 2--------------------------|
A|---------------- 2--------------|---------- 2---- 7--------------|
E|------------ 3---------- 2---- 0|------------------------ 7------|
Classical Guitar Tablature : http://classicalguitartablature.blogspot.com/
E| 7------------------------------|---------- 0-- 0 0-- 2------ 3--|
B|---------- 7-- 7----------------|------ 1-- 1-- 1 1 0------------|
G|------ 7-- 7---- 7--------------|------ 0-- 0-- 0 0--------------|
D|---- 7---- 7-------- 7------ 7--|---- 2--------------------------|
A| 5-------------- 5--------------| 3-------------- 3--------------|
E|------------ 5---------- 5------|---------- 3------------ 3------|
Classical Guitar Tablature : http://classicalguitartablature.blogspot.com/
E| 3------------------------------|-------------------------- 0----|
B| 3------ 3-- 3-- 3--------------|------ 1-- 1 1 1---- 3---- 1----|
G|------ 0-------- 0--------------|---- 2---- 2 2 2---- 2----------|
D|---- 0-------------- 0------ 0--|---- 2---- 2 2-- 2--------------|
A| 2-------------- 2--------------| 0-------------- 0--------------|
E|------------ 3-------- 3--------|---------- 0---------- 0--------|
Classical Guitar Tablature : http://classicalguitartablature.blogspot.com/
E| 0-------------- 0-- 2---- 3 0--| 2------------------------ 2-- 0|
B|-------- 0 0---- 0--------------|-------- 2------ 4-- 5---- 4 4--|
G|------ 0-------- 0--------------|------ 3-------- 2-- 2---- 2 2--|
D|---- 2--------------------------|---- 4---------- 4-- 4------ 4--|
A|------------ 2---------- 2------|------------ 4-- 2--------------|
E| 3-------------- 3--------------| 2---------------------- 2---- 0|
Classical Guitar Tablature : http://classicalguitartablature.blogspot.com/
E|-------------- 0----------------|---------------- 0--------------|
B|------ 0-- 0 0---- 0-- 0-- 0-- 0|------ 0-- 0 0------ 0-- 0-- 0--|
G|------ 0------------------------|---- 2--------------------------|
D|-- 2----------------------------|-- 4----------------------------|
A|---------- 2-- 7-------------- 5|---------- 0---- 5------ 0------|
E|---------------------- 7--------|--------------------------------|
Classical Guitar Tablature : http://classicalguitartablature.blogspot.com/
E|---------------- 0--------------|---------------- 0--------------|
B| 0---- 0-- 0 0------ 0-- 0-- 0--| 0---- 0-- 0 0-- 0-- 0-- 0-- 0--|
G|------ 0------------------------| 2---- 2-- 2 2-- 2-- 2-- 2-- 2--|
D|---- 2--------------------------|---- 1------ 1------ 1-- 1-- 1--|
A| 3-------------- 3--------------| 2-------------- 2--------------|
E|---------- 3------------ 3------|------------ 2---------- 2------|
Classical Guitar Tablature : http://classicalguitartablature.blogspot.com/
E| 0---------------- 0------------|--------------------------------|
B| 0---------------- 0------------|--------------------------------|
G| 0-------------- 0--------------|--------------------------------|
D|--------------------------------|--------------------------------|
A|--------------------------------|--------------------------------|
E| 0-------------- 0--------------|--------------------------------|
Classical Guitar Tablature : http://classicalguitartablature.blogspot.com/

0 ความคิดเห็น:

แสดงความคิดเห็น